P&G RSSフィード

2011-09-19

[] ZOOM GFX-1 パッチ

自分のセッティングバックアップしておくためのメモ書き。

パッチNo.パッチPATCH LEVELCOMP/LIMITWAHDRIVEEQCONTOURZNR/AMPMOD/PITCHDLY/RVBTIME
(A1)クリーンコーラス, 使う機会ナシ29L1offAc242S9C7R26
(A2)音がペラディストーション21offoffdtof--B9C2D130
(A3)リガリ系23offoffPv234b9C2D130
(A4)ギンギン系20offoffLd3710S9C1D130
(B1)ズンズン系19offoffLd2810S9C2D230
(B2)万能OD(new)20offoffLd2810B9C2D230
(B3)グシャリ22offoffbG176B9offD128
(B4)グッシャリ22offoffbG176C9offD128
(C1)万能OD(old)21offoffLd285B9C2D130
(C2)無頼と様21L1P7FUoff-S9C1D128
(C3)大人しOD20offoffLd3710S9C1D130
(C4)C3+オク上20offoffLd3710S9P6D130
(D1)似非ベース19offoffUb2069P1off-
(J1)クリーンリバーブ22offoffUb2810B9C2D230

memo:デフォルトパッチセットではF1,F4がかなり美味しいのでF4を適宜に移植

2008-12-24

[]サイコソルジャー'94

Intro
|--------------------------------------|
|--------------------------------------|
|-------5-x-x-3-4-5--------5-x-x-5-3---|
|-------3-x-x-1-2-3--------3-x-x-3-1---|    x2
|--------------------------------------|
|-1-x-x-------------1--x-x-------------|

|--------------------------------------|
|--------------------------------------|
|-------5-x-x-3-4-5--------------------|
|-------3-x-x-1-2-3-5------------------|
|-------------------3------------------|
|-1-x-x--------------------------------|


verse
|--------------------|-----------------|
|--------------------|-----------------|
|------4--2-3-4-2----|-----------------|
|------2--0-1-2-0----|-2-/12-\9--------|
|-2--2---------------|-----------------|
|-0--0---------------|-----------------|

|--------------------------------------|
|--------------------------------------|
|------------------------4--2-3-4-2----|
|-7----2-/12-\9----------2--0-1-2-0----|
|-5---------------2--x-x---------------|
|-----------------0--x-x---------------|



|--------------------------------------|
|--------------------------------------|
|--------------------------------------|
|-2-/12-9--7--5----4-------------------|
|-------7--5--3----2-------------------|
|--------------------------------------|


riff
|--------------------------------------|
|--------------------------------------|
|--------------------------------------|
|--------9-x-x-7-8-9--------9-x-x-9-7--|  x3
|--------7-x-x-5-6-7--------7-x-x-7-5--|
|-0--0-0-------------0--0-0------------|

|--------------------5-----------------|
|--------------------5-----------------|
|--------------------6-----------------|
|--------9-x-x-7-8-9-7-----------------|
|--------7-x-x-5-6-7-7-----------------|
|-0--0-0-------------5-----------------|


Intro -> Verse -> Verse -> Riff -> Verse Verse Verse....

2007-04-24

[]ロックマンXの…よく知らない><

||--------------------------------------------------------|
||--------------------------------------------------------|
||---------5-----3----------------------------5-----3-----|
||---------5-----3-----6-----5----3\2---------5-----3-----|
||-3---3-3-----3-----3-6---3-5----3\2-3---3-3-----3-------|
||--------------------------------------------------------|

|--------------------------------------------------------|
|--------------------------------------------------------|
|---------5-----3----------------------------------------|
|---------5-----3-----6-----5----3\2-3-----------3-------|
|-3---3-3-----3-----3-6---3-5----3\2-3---3-3-3-3-3-------|
|--------------------------------------------------------|


||--------------------------------------------------------|
|*--------------------------------------------------------|
||---------5-----3----------------------------5-----3-----|
||---------5-----3-----6-----5----3\2---------5-----3-----|
|*-3---3-3-----3-----3-6---3-5----3\2-3---3-3-----3-------|
||--------------------------------------------------------|

|--------------------------------------------------------|
|--------------------------------------------------------|
|---------5-----3----------------------------------------|
|---------5-----3-----6-----5----3\2-3-----------3-------|
|-3---3-3-----3-----3-6---3-5----3\2-3---3-3-3-3-3-------|
|--------------------------------------------------------|

|--------------------------------------------------------|
|---------6-----4-----3----------------------6-----4-----|
|---------5-----3-----3-----5----3\2---------5-----3-----|
|-3---3-3-----3-----3-----3-5----3\2-3---3-3-----3-------|
|--------------------------------------------------------|
|--------------------------------------------------------|

|--------------------------------------------------------||
|--------6-----4-----3-----------------------------------*|
|--------5-----3-----3-----5----3\2-3-----------3--------||
|-3--3-3-----3-----3-----3-5----3\2-3---3-3-3-3-3--------||
|--------------------------------------------------------*|
|--------------------------------------------------------||

2007-01-12

[]FF5より「はるかなる故郷

|----2-2-5-4-2---2-4-2-------------|----2-2-5-4-2---2-4-2--7--5--7----|
|-0--2-3-------5-------------------|-0--2-3-------5-------------------|
|-----------------------4--2--4----|----------------------------------|
|--------------------4--------2----|--------------------4--9--7--9----|
|-2--------------------------------|-2--------------------------------|
|----------------------------------|----------------------------------|


|------------------------------------------|
|------------------------------------------|
|----11--11--14--13-11-9-13-11-------------|
|-9-----------------------------9--7--9----|
|------------------------------------------|
|------------------------------------------|

|---------------------------------------------|
|---------------------------------------------|
|----11--11--14--13-11-9-13-11--16--14--16----|
|-9-------------------------------------------|
|---------------------------------------------|
|---------------------------------------------|

|-------------------------------------------|
|--------14---------------------------------|
|-16--16----14--------14--13----------------|
|--------------16-16---------16-------------|
|--------------------------------14--12--14-|
|-------------------------------------------|

|---------------------------------------------|
|---------------------------------------------|
|----11--11--14--13-11-9-13-11--16--14--16----|
|-9-------------------------------------------|
|---------------------------------------------|
|---------------------------------------------|


|------------------------------------------------|
|------------------------------------------------|
|------------11----------------------------------|
|-9--9-11-12----14-12-11-12-14--12--11--9--11----|
|------------------------------------------------|
|------------------------------------------------|

|-----------------------------------------------|
|-----------------------------------------------|
|------------11---------------------------------|
|-9--9-11-12----14-12-11-12-14--12--11--7--9----|
|-----------------------------------------------|
|-----------------------------------------------|


|-----14--14--17--16-14-12-16-14----------------|
|-12------------------------------12------12----|
|-------------------------------------14--------|
|-----------------------------------------------|
|-----------------------------------------------|
|-----------------------------------------------|

|-----14--14--17--16-14-12-16-14--19--17--19~---|
|-12--------------------------------------------|
|-----------------------------------------------|
|-----------------------------------------------|
|-----------------------------------------------|
|-----------------------------------------------|

|-19--19-21-17--------17------------------------|
|--------------19-17------21--19----------------|
|---------------------------------16--14--16~---|
|-----------------------------------------------|
|-----------------------------------------------|
|-----------------------------------------------|

|-----14--14--17--16-14-12-16-14--19--17--19~---|
|-12--------------------------------------------|
|-----------------------------------------------|
|-----------------------------------------------|
|-----------------------------------------------|
|-----------------------------------------------|

2007-01-10

[]あの曲prt.2


|----------------|---------------|----------------|--------------|
|----------------|---------------|----------------|--------------|
|----------------|---------------|----------------|--------------|
|-5-4-2---2------|-2---------2---|-5-4-2---2------|-2--------2---|
|-------5----5-2-|----5-2-5----5-|-------5----5-2-|----5-2-5---5-|
|----------------|---------------|----------------|--------------|

|----------------|---------------|----------------|--------------|
|----------------|---------------|----------------|--------------|
|----------------|---------------|----------------|----------4---|
|--------4-------|-2---------2---|--------4-------|-2--------2---|
|---2--5----5-2--|----5-2-5----2-|---2--5----5-2--|----5-2-5-----|
|-3--------------|---------------|-3--------------|--------------|

2006-10-07

wata64さんへ捧ぐ

|-8--7-------------------|-------------------|------------7--|
|-------7-10--8----------|-------------------|------8---8----|
|---------------10-7-----|------7--------9--7|----9---9------|
|--------------------10--|-9/10--------9-----|-10------------|
|------------------------|---------10--------|---------------|
|------------------------|-------------------|---------------|

|-8--7-------------------|-------------------|
|-------7-10--8----------|-------------------|
|---------------10-7-----|------9-7-9-7------|
|--------------------10--|-9/10----------10--|
|------------------------|-------------------|
|------------------------|-------------------|

2006-09-21

[][]絶望

ダークな曲が生まれたので俺にわかるようにメモ

リズム
5-5-5-6 5-5-5-3
6-6-6-8 6-6-6-4  x2
7-7-7-7 7-7-7-5

3-3-3-4 3-3-3-1
4-4-4-6 4-4-4-2  x2
5-5-5-5 5-5-5-3

リード
-------14-15---  x3 15-14----------
12--15---------    ------12-------

6/7-6-6/7---  x4

------11-12--   x3 12-11-----
9-12---------     ------9---

-66--66--6-|-88--88--8-|-1010--1010--10-|--1212---1212----12-|
-----------|-----------|----------------|--------------------|
5---5---5--|7---7---7--|9-----9-----9---|10-----10-----10----|

--------------------------15--15--|15-14--------|
--14--14--16--16--18--18----------|------12-----|
------------------------13--13----|-------------|
12--12--14--14--16--16------------|-------------|